ISO-10303-21;
HEADER;
FILE_DESCRIPTION (( 'STEP AP203' ),
    '1' );
FILE_NAME ('Q-QZWP-R4-12.7-1550-M.STEP',
    '2020-12-23T01:23:12',
    ( '' ),
    ( '' ),
    'SwSTEP 2.0',
    'SolidWorks 2020',
    '' );
FILE_SCHEMA (( 'CONFIG_CONTROL_DESIGN' ));
ENDSEC;

DATA;
#1 = CARTESIAN_POINT ( 'NONE',  ( 1.500000000000000888, 0.000000000000000000, 6.349999999999999645 ) ) ;
#2 = CARTESIAN_POINT ( 'NONE',  ( 1.500000000000000888, 0.000000000000000000, 0.000000000000000000 ) ) ;
#3 = ORIENTED_EDGE ( 'NONE', *, *, #149, .F. ) ;
#4 = AXIS2_PLACEMENT_3D ( 'NONE', #85, #74, #159 ) ;
#5 = APPROVAL ( #307, 'UNSPECIFIED' ) ;
#6 = ORIENTED_EDGE ( 'NONE', *, *, #310, .F. ) ;
#7 = EDGE_LOOP ( 'NONE', ( #46, #163 ) ) ;
#8 = ORIENTED_EDGE ( 'NONE', *, *, #49, .T. ) ;
#9 = DIRECTION ( 'NONE',  ( 1.000000000000000000, 0.000000000000000000, 0.000000000000000000 ) ) ;
#10 = AXIS2_PLACEMENT_3D ( 'NONE', #61, #290, #116 ) ;
#11 = PRODUCT_RELATED_PRODUCT_CATEGORY ( 'detail', '', ( #77 ) ) ;
#12 = CARTESIAN_POINT ( 'NONE',  ( -1.614212418857619014, 0.000000000000000000, 0.000000000000000000 ) ) ;
#13 = VERTEX_POINT ( 'NONE', #287 ) ;
#14 = CARTESIAN_POINT ( 'NONE',  ( -1.500000000000000444, 6.349999999999999645, 0.000000000000000000 ) ) ;
#15 = CC_DESIGN_PERSON_AND_ORGANIZATION_ASSIGNMENT ( #75, #213, ( #257 ) ) ;
#16 = LINE ( 'NONE', #151, #209 ) ;
#17 = CIRCLE ( 'NONE', #327, 12.69999999999999929 ) ;
#18 = CYLINDRICAL_SURFACE ( 'NONE', #86, 6.349999999999999645 ) ;
#19 = PERSON_AND_ORGANIZATION ( #144, #269 ) ;
#20 = AXIS2_PLACEMENT_3D ( 'NONE', #93, #84, #55 ) ;
#21 = CALENDAR_DATE ( 2020, 23, 12 ) ;
#22 = CALENDAR_DATE ( 2020, 23, 12 ) ;
#23 = APPROVAL_ROLE ( '' ) ;
#24 = EDGE_CURVE ( 'NONE', #322, #317, #253, .T. ) ;
#25 = CYLINDRICAL_SURFACE ( 'NONE', #4, 6.349999999999999645 ) ;
#26 = ORIENTED_EDGE ( 'NONE', *, *, #281, .T. ) ;
#27 = PERSON_AND_ORGANIZATION ( #144, #269 ) ;
#28 = ORIENTED_EDGE ( 'NONE', *, *, #196, .T. ) ;
#29 = DIRECTION ( 'NONE',  ( -1.000000000000000000, -0.000000000000000000, -0.000000000000000000 ) ) ;
#30 = AXIS2_PLACEMENT_3D ( 'NONE', #231, #329, #325 ) ;
#31 = EDGE_LOOP ( 'NONE', ( #221, #28 ) ) ;
#32 = LOCAL_TIME ( 9, 23, 12.00000000000000000, #182 ) ;
#33 = EDGE_LOOP ( 'NONE', ( #170, #265, #222, #168 ) ) ;
#34 = EDGE_LOOP ( 'NONE', ( #120, #90 ) ) ;
#35 = DIRECTION ( 'NONE',  ( -1.000000000000000000, -0.000000000000000000, -0.000000000000000000 ) ) ;
#36 = DIRECTION ( 'NONE',  ( 0.000000000000000000, 0.000000000000000000, 1.000000000000000000 ) ) ;
#37 = CIRCLE ( 'NONE', #233, 6.349999999999999645 ) ;
#38 = CYLINDRICAL_SURFACE ( 'NONE', #192, 12.69999999999999929 ) ;
#39 = ADVANCED_FACE ( 'NONE', ( #288 ), #309, .F. ) ;
#40 = FACE_OUTER_BOUND ( 'NONE', #216, .T. ) ;
#41 = DIRECTION ( 'NONE',  ( 0.000000000000000000, 0.000000000000000000, 1.000000000000000000 ) ) ;
#42 = AXIS2_PLACEMENT_3D ( 'NONE', #2, #215, #316 ) ;
#43 = CARTESIAN_POINT ( 'NONE',  ( -3.000000000000000000, 0.000000000000000000, 0.000000000000000000 ) ) ;
#44 = DATE_AND_TIME ( #21, #210 ) ;
#45 = EDGE_CURVE ( 'NONE', #92, #283, #80, .T. ) ;
#46 = ORIENTED_EDGE ( 'NONE', *, *, #97, .F. ) ;
#47 = AXIS2_PLACEMENT_3D ( 'NONE', #293, #202, #172 ) ;
#48 = APPROVAL ( #117, 'UNSPECIFIED' ) ;
#49 = EDGE_CURVE ( 'NONE', #270, #58, #312, .T. ) ;
#50 = APPROVAL_DATE_TIME ( #158, #5 ) ;
#51 = ADVANCED_FACE ( 'NONE', ( #56, #165 ), #140, .F. ) ;
#52 =( LENGTH_UNIT ( ) NAMED_UNIT ( * ) SI_UNIT ( .MILLI., .METRE. ) );
#53 = VERTEX_POINT ( 'NONE', #248 ) ;
#54 = DIRECTION ( 'NONE',  ( 0.000000000000000000, 0.000000000000000000, 1.000000000000000000 ) ) ;
#55 = DIRECTION ( 'NONE',  ( 0.000000000000000000, 0.000000000000000000, 1.000000000000000000 ) ) ;
#56 = FACE_BOUND ( 'NONE', #7, .T. ) ;
#57 = CARTESIAN_POINT ( 'NONE',  ( -3.000000000000000000, 6.349999999999999645, 0.000000000000000000 ) ) ;
#58 = VERTEX_POINT ( 'NONE', #121 ) ;
#59 = ORIENTED_EDGE ( 'NONE', *, *, #89, .T. ) ;
#60 = LOCAL_TIME ( 9, 23, 12.00000000000000000, #82 ) ;
#61 = CARTESIAN_POINT ( 'NONE',  ( -1.500000000000000444, 0.000000000000000000, 0.000000000000000000 ) ) ;
#62 = ORIENTED_EDGE ( 'NONE', *, *, #238, .F. ) ;
#63 = LINE ( 'NONE', #276, #268 ) ;
#64 = FACE_BOUND ( 'NONE', #95, .T. ) ;
#65 = EDGE_CURVE ( 'NONE', #244, #317, #128, .T. ) ;
#66 = DIRECTION ( 'NONE',  ( -1.000000000000000000, -0.000000000000000000, -0.000000000000000000 ) ) ;
#67 = AXIS2_PLACEMENT_3D ( 'NONE', #105, #66, #148 ) ;
#68 = DIRECTION ( 'NONE',  ( -1.000000000000000000, -0.000000000000000000, -0.000000000000000000 ) ) ;
#69 = DIRECTION ( 'NONE',  ( -1.000000000000000000, -0.000000000000000000, -0.000000000000000000 ) ) ;
#70 = AXIS2_PLACEMENT_3D ( 'NONE', #245, #29, #331 ) ;
#71 = LOCAL_TIME ( 9, 23, 12.00000000000000000, #260 ) ;
#72 = DIRECTION ( 'NONE',  ( -1.000000000000000000, -0.000000000000000000, -0.000000000000000000 ) ) ;
#73 = EDGE_LOOP ( 'NONE', ( #218, #266, #193, #191 ) ) ;
#74 = DIRECTION ( 'NONE',  ( -1.000000000000000000, -0.000000000000000000, -0.000000000000000000 ) ) ;
#75 = PERSON_AND_ORGANIZATION ( #144, #269 ) ;
#76 = CC_DESIGN_PERSON_AND_ORGANIZATION_ASSIGNMENT ( #27, #243, ( #206 ) ) ;
#77 = PRODUCT ( 'Q-QZWP-R4-12.7-1550-M', 'Q-QZWP-R4-12.7-1550-M', '', ( #205 ) ) ;
#78 = CIRCLE ( 'NONE', #150, 6.349999999999999645 ) ;
#79 = PERSON_AND_ORGANIZATION_ROLE ( 'creator' ) ;
#80 = CIRCLE ( 'NONE', #10, 6.349999999999999645 ) ;
#81 = EDGE_CURVE ( 'NONE', #283, #246, #16, .T. ) ;
#82 = COORDINATED_UNIVERSAL_TIME_OFFSET ( 8, 0, .AHEAD. ) ;
#83 = CARTESIAN_POINT ( 'NONE',  ( 1.500000000000000888, 7.776507174585692163E-16, -6.349999999999999645 ) ) ;
#84 = DIRECTION ( 'NONE',  ( -1.000000000000000000, -0.000000000000000000, -0.000000000000000000 ) ) ;
#85 = CARTESIAN_POINT ( 'NONE',  ( -1.614212418857619014, 0.000000000000000000, 0.000000000000000000 ) ) ;
#86 = AXIS2_PLACEMENT_3D ( 'NONE', #12, #169, #197 ) ;
#87 = LOCAL_TIME ( 9, 23, 12.00000000000000000, #138 ) ;
#88 = CARTESIAN_POINT ( 'NONE',  ( -1.614212418857619014, 1.555301434917138433E-15, -12.69999999999999929 ) ) ;
#89 = EDGE_CURVE ( 'NONE', #53, #246, #37, .T. ) ;
#90 = ORIENTED_EDGE ( 'NONE', *, *, #334, .F. ) ;
#91 = PERSON_AND_ORGANIZATION_ROLE ( 'design_owner' ) ;
#92 = VERTEX_POINT ( 'NONE', #130 ) ;
#93 = CARTESIAN_POINT ( 'NONE',  ( -1.614212418857619014, 0.000000000000000000, 0.000000000000000000 ) ) ;
#94 = VERTEX_POINT ( 'NONE', #123 ) ;
#95 = EDGE_LOOP ( 'NONE', ( #319, #271 ) ) ;
#96 = CC_DESIGN_DATE_AND_TIME_ASSIGNMENT ( #302, #136, ( #257 ) ) ;
#97 = EDGE_CURVE ( 'NONE', #246, #53, #103, .T. ) ;
#98 = CIRCLE ( 'NONE', #296, 12.69999999999999929 ) ;
#99 = CYLINDRICAL_SURFACE ( 'NONE', #267, 6.349999999999999645 ) ;
#100 = ADVANCED_FACE ( 'NONE', ( #226 ), #18, .F. ) ;
#101 = PLANE ( 'NONE',  #285 ) ;
#102 = DIRECTION ( 'NONE',  ( 0.000000000000000000, 0.000000000000000000, 1.000000000000000000 ) ) ;
#103 = CIRCLE ( 'NONE', #127, 6.349999999999999645 ) ;
#104 = APPROVAL_PERSON_ORGANIZATION ( #314, #48, #189 ) ;
#105 = CARTESIAN_POINT ( 'NONE',  ( -1.614212418857619014, 0.000000000000000000, 0.000000000000000000 ) ) ;
#106 = LINE ( 'NONE', #173, #219 ) ;
#107 = APPLICATION_PROTOCOL_DEFINITION ( 'international standard', 'config_control_design', 1994, #184 ) ;
#108 = EDGE_CURVE ( 'NONE', #143, #322, #106, .T. ) ;
#109 = APPROVAL_DATE_TIME ( #237, #328 ) ;
#110 = AXIS2_PLACEMENT_3D ( 'NONE', #57, #166, #247 ) ;
#111 = SHAPE_DEFINITION_REPRESENTATION ( #201, #278 ) ;
#112 = CC_DESIGN_SECURITY_CLASSIFICATION ( #257, ( #206 ) ) ;
#113 = UNCERTAINTY_MEASURE_WITH_UNIT (LENGTH_MEASURE( 1.000000000000000082E-05 ), #52, 'distance_accuracy_value', 'NONE');
#114 = CARTESIAN_POINT ( 'NONE',  ( -2.999999999999999556, 0.000000000000000000, 6.349999999999999645 ) ) ;
#115 = CARTESIAN_POINT ( 'NONE',  ( 0.000000000000000000, 0.000000000000000000, 0.000000000000000000 ) ) ;
#116 = DIRECTION ( 'NONE',  ( 0.000000000000000000, 0.000000000000000000, -1.000000000000000000 ) ) ;
#117 = APPROVAL_STATUS ( 'not_yet_approved' ) ;
#118 = ORIENTED_EDGE ( 'NONE', *, *, #299, .T. ) ;
#119 = CC_DESIGN_DATE_AND_TIME_ASSIGNMENT ( #239, #157, ( #212 ) ) ;
#120 = ORIENTED_EDGE ( 'NONE', *, *, #299, .F. ) ;
#121 = CARTESIAN_POINT ( 'NONE',  ( -3.000000000000000000, 1.555301434917138433E-15, -12.69999999999999929 ) ) ;
#122 = DIRECTION ( 'NONE',  ( -1.000000000000000000, -0.000000000000000000, -0.000000000000000000 ) ) ;
#123 = CARTESIAN_POINT ( 'NONE',  ( -3.000000000000000000, 0.000000000000000000, 12.69999999999999929 ) ) ;
#124 = ADVANCED_FACE ( 'NONE', ( #297 ), #38, .T. ) ;
#125 = DIRECTION ( 'NONE',  ( 0.000000000000000000, 0.000000000000000000, 1.000000000000000000 ) ) ;
#126 = ORIENTED_EDGE ( 'NONE', *, *, #258, .F. ) ;
#127 = AXIS2_PLACEMENT_3D ( 'NONE', #171, #145, #250 ) ;
#128 = LINE ( 'NONE', #175, #204 ) ;
#129 = ADVANCED_FACE ( 'NONE', ( #295 ), #230, .F. ) ;
#130 = CARTESIAN_POINT ( 'NONE',  ( -1.500000000000000444, 7.776507174585692163E-16, -6.349999999999999645 ) ) ;
#131 = ADVANCED_FACE ( 'NONE', ( #146 ), #101, .F. ) ;
#132 = DIRECTION ( 'NONE',  ( 0.000000000000000000, 0.000000000000000000, 1.000000000000000000 ) ) ;
#133 = CIRCLE ( 'NONE', #47, 6.349999999999999645 ) ;
#134 =( GEOMETRIC_REPRESENTATION_CONTEXT ( 3 ) GLOBAL_UNCERTAINTY_ASSIGNED_CONTEXT ( ( #113 ) ) GLOBAL_UNIT_ASSIGNED_CONTEXT ( ( #52, #286, #255 ) ) REPRESENTATION_CONTEXT ( 'NONE', 'WORKASPACE' ) );
#135 = APPROVAL_DATE_TIME ( #44, #48 ) ;
#136 = DATE_TIME_ROLE ( 'classification_date' ) ;
#137 = AXIS2_PLACEMENT_3D ( 'NONE', #139, #162, #132 ) ;
#138 = COORDINATED_UNIVERSAL_TIME_OFFSET ( 8, 0, .AHEAD. ) ;
#139 = CARTESIAN_POINT ( 'NONE',  ( 1.500000000000000888, 0.000000000000000000, 0.000000000000000000 ) ) ;
#140 = PLANE ( 'NONE',  #110 ) ;
#141 = AXIS2_PLACEMENT_3D ( 'NONE', #185, #214, #217 ) ;
#142 = CC_DESIGN_APPROVAL ( #5, ( #257 ) ) ;
#143 = VERTEX_POINT ( 'NONE', #200 ) ;
#144 = PERSON ( 'UNSPECIFIED', 'UNSPECIFIED', 'UNSPECIFIED', ('UNSPECIFIED'), ('UNSPECIFIED'), ('UNSPECIFIED') ) ;
#145 = DIRECTION ( 'NONE',  ( -1.000000000000000000, -0.000000000000000000, -0.000000000000000000 ) ) ;
#146 = FACE_OUTER_BOUND ( 'NONE', #177, .T. ) ;
#147 = DIRECTION ( 'NONE',  ( -1.000000000000000000, -0.000000000000000000, -0.000000000000000000 ) ) ;
#148 = DIRECTION ( 'NONE',  ( 0.000000000000000000, 0.000000000000000000, 1.000000000000000000 ) ) ;
#149 = EDGE_CURVE ( 'NONE', #283, #92, #78, .T. ) ;
#150 = AXIS2_PLACEMENT_3D ( 'NONE', #330, #254, #225 ) ;
#151 = CARTESIAN_POINT ( 'NONE',  ( -1.614212418857619014, 0.000000000000000000, 6.349999999999999645 ) ) ;
#152 = DIRECTION ( 'NONE',  ( 0.000000000000000000, 0.000000000000000000, 1.000000000000000000 ) ) ;
#153 = DIRECTION ( 'NONE',  ( -1.000000000000000000, -0.000000000000000000, -0.000000000000000000 ) ) ;
#154 = ADVANCED_FACE ( 'NONE', ( #279 ), #99, .F. ) ;
#155 = EDGE_LOOP ( 'NONE', ( #126, #194 ) ) ;
#156 = EDGE_LOOP ( 'NONE', ( #160, #6, #188, #292 ) ) ;
#157 = DATE_TIME_ROLE ( 'creation_date' ) ;
#158 = DATE_AND_TIME ( #284, #32 ) ;
#159 = DIRECTION ( 'NONE',  ( 0.000000000000000000, 0.000000000000000000, 1.000000000000000000 ) ) ;
#160 = ORIENTED_EDGE ( 'NONE', *, *, #108, .F. ) ;
#161 = DIRECTION ( 'NONE',  ( -1.000000000000000000, -0.000000000000000000, -0.000000000000000000 ) ) ;
#162 = DIRECTION ( 'NONE',  ( -1.000000000000000000, -0.000000000000000000, -0.000000000000000000 ) ) ;
#163 = ORIENTED_EDGE ( 'NONE', *, *, #89, .F. ) ;
#164 = ADVANCED_FACE ( 'NONE', ( #40 ), #228, .T. ) ;
#165 = FACE_OUTER_BOUND ( 'NONE', #31, .T. ) ;
#166 = DIRECTION ( 'NONE',  ( 1.000000000000000000, 0.000000000000000000, 0.000000000000000000 ) ) ;
#167 = CIRCLE ( 'NONE', #137, 6.349999999999999645 ) ;
#168 = ORIENTED_EDGE ( 'NONE', *, *, #65, .F. ) ;
#169 = DIRECTION ( 'NONE',  ( -1.000000000000000000, -0.000000000000000000, -0.000000000000000000 ) ) ;
#170 = ORIENTED_EDGE ( 'NONE', *, *, #174, .F. ) ;
#171 = CARTESIAN_POINT ( 'NONE',  ( -2.999999999999999556, 0.000000000000000000, 0.000000000000000000 ) ) ;
#172 = DIRECTION ( 'NONE',  ( 0.000000000000000000, 0.000000000000000000, 1.000000000000000000 ) ) ;
#173 = CARTESIAN_POINT ( 'NONE',  ( -1.614212418857619014, 7.776507174585692163E-16, -6.349999999999999645 ) ) ;
#174 = EDGE_CURVE ( 'NONE', #143, #244, #133, .T. ) ;
#175 = CARTESIAN_POINT ( 'NONE',  ( -1.614212418857619014, 0.000000000000000000, 6.349999999999999645 ) ) ;
#176 = AXIS2_PLACEMENT_3D ( 'NONE', #186, #72, #152 ) ;
#177 = EDGE_LOOP ( 'NONE', ( #3, #236 ) ) ;
#178 = APPROVAL_STATUS ( 'not_yet_approved' ) ;
#179 = DIRECTION ( 'NONE',  ( -1.000000000000000000, -0.000000000000000000, -0.000000000000000000 ) ) ;
#180 = APPROVAL_ROLE ( '' ) ;
#181 = CIRCLE ( 'NONE', #176, 6.349999999999999645 ) ;
#182 = COORDINATED_UNIVERSAL_TIME_OFFSET ( 8, 0, .AHEAD. ) ;
#183 = EDGE_CURVE ( 'NONE', #13, #94, #63, .T. ) ;
#184 = APPLICATION_CONTEXT ( 'configuration controlled 3d designs of mechanical parts and assemblies' ) ;
#185 = CARTESIAN_POINT ( 'NONE',  ( 3.000000000000000000, 12.69999999999999929, 0.000000000000000000 ) ) ;
#186 = CARTESIAN_POINT ( 'NONE',  ( 3.000000000000000888, 0.000000000000000000, 0.000000000000000000 ) ) ;
#187 = DIRECTION ( 'NONE',  ( -1.000000000000000000, -0.000000000000000000, -0.000000000000000000 ) ) ;
#188 = ORIENTED_EDGE ( 'NONE', *, *, #65, .T. ) ;
#189 = APPROVAL_ROLE ( '' ) ;
#190 = ORIENTED_EDGE ( 'NONE', *, *, #183, .F. ) ;
#191 = ORIENTED_EDGE ( 'NONE', *, *, #196, .F. ) ;
#192 = AXIS2_PLACEMENT_3D ( 'NONE', #273, #35, #125 ) ;
#193 = ORIENTED_EDGE ( 'NONE', *, *, #183, .T. ) ;
#194 = ORIENTED_EDGE ( 'NONE', *, *, #24, .F. ) ;
#195 = CARTESIAN_POINT ( 'NONE',  ( -1.614212418857619014, 0.000000000000000000, 0.000000000000000000 ) ) ;
#196 = EDGE_CURVE ( 'NONE', #58, #94, #240, .T. ) ;
#197 = DIRECTION ( 'NONE',  ( 0.000000000000000000, 0.000000000000000000, 1.000000000000000000 ) ) ;
#198 = CC_DESIGN_PERSON_AND_ORGANIZATION_ASSIGNMENT ( #207, #259, ( #212 ) ) ;
#199 = VECTOR ( 'NONE', #179, 1000.000000000000000 ) ;
#200 = CARTESIAN_POINT ( 'NONE',  ( 3.000000000000000888, 7.776507174585692163E-16, -6.349999999999999645 ) ) ;
#201 = PRODUCT_DEFINITION_SHAPE ( 'NONE', 'NONE',  #212 ) ;
#202 = DIRECTION ( 'NONE',  ( -1.000000000000000000, -0.000000000000000000, -0.000000000000000000 ) ) ;
#203 = ADVANCED_FACE ( 'NONE', ( #324, #64 ), #308, .F. ) ;
#204 = VECTOR ( 'NONE', #251, 1000.000000000000000 ) ;
#205 = MECHANICAL_CONTEXT ( 'NONE', #184, 'mechanical' ) ;
#206 = PRODUCT_DEFINITION_FORMATION_WITH_SPECIFIED_SOURCE ( 'ANY', '', #77, .NOT_KNOWN. ) ;
#207 = PERSON_AND_ORGANIZATION ( #144, #269 ) ;
#208 = LINE ( 'NONE', #262, #199 ) ;
#209 = VECTOR ( 'NONE', #68, 1000.000000000000000 ) ;
#210 = LOCAL_TIME ( 9, 23, 12.00000000000000000, #289 ) ;
#211 = CALENDAR_DATE ( 2020, 23, 12 ) ;
#212 = PRODUCT_DEFINITION ( 'UNKNOWN', '', #206, #306 ) ;
#213 = PERSON_AND_ORGANIZATION_ROLE ( 'classification_officer' ) ;
#214 = DIRECTION ( 'NONE',  ( -1.000000000000000000, 0.000000000000000000, -0.000000000000000000 ) ) ;
#215 = DIRECTION ( 'NONE',  ( -1.000000000000000000, -0.000000000000000000, -0.000000000000000000 ) ) ;
#216 = EDGE_LOOP ( 'NONE', ( #118, #8, #62, #190 ) ) ;
#217 = DIRECTION ( 'NONE',  ( -0.000000000000000000, 0.000000000000000000, 1.000000000000000000 ) ) ;
#218 = ORIENTED_EDGE ( 'NONE', *, *, #49, .F. ) ;
#219 = VECTOR ( 'NONE', #326, 1000.000000000000000 ) ;
#220 = APPLICATION_PROTOCOL_DEFINITION ( 'international standard', 'config_control_design', 1994, #274 ) ;
#221 = ORIENTED_EDGE ( 'NONE', *, *, #238, .T. ) ;
#222 = ORIENTED_EDGE ( 'NONE', *, *, #24, .T. ) ;
#223 = CIRCLE ( 'NONE', #70, 12.69999999999999929 ) ;
#224 = ORIENTED_EDGE ( 'NONE', *, *, #97, .T. ) ;
#225 = DIRECTION ( 'NONE',  ( 0.000000000000000000, 0.000000000000000000, -1.000000000000000000 ) ) ;
#226 = FACE_OUTER_BOUND ( 'NONE', #33, .T. ) ;
#227 = ADVANCED_FACE ( 'NONE', ( #303 ), #25, .F. ) ;
#228 = CYLINDRICAL_SURFACE ( 'NONE', #67, 12.69999999999999929 ) ;
#229 = MANIFOLD_SOLID_BREP ( 'Ðý×', #280 ) ;
#230 = PLANE ( 'NONE',  #30 ) ;
#231 = CARTESIAN_POINT ( 'NONE',  ( 1.500000000000000444, 6.349999999999999645, 0.000000000000000000 ) ) ;
#232 = CARTESIAN_POINT ( 'NONE',  ( 3.000000000000000000, 0.000000000000000000, 0.000000000000000000 ) ) ;
#233 = AXIS2_PLACEMENT_3D ( 'NONE', #249, #275, #36 ) ;
#234 = PERSON_AND_ORGANIZATION ( #144, #269 ) ;
#235 = APPROVAL_PERSON_ORGANIZATION ( #19, #328, #180 ) ;
#236 = ORIENTED_EDGE ( 'NONE', *, *, #45, .F. ) ;
#237 = DATE_AND_TIME ( #211, #60 ) ;
#238 = EDGE_CURVE ( 'NONE', #94, #58, #98, .T. ) ;
#239 = DATE_AND_TIME ( #22, #71 ) ;
#240 = CIRCLE ( 'NONE', #305, 12.69999999999999929 ) ;
#241 = DIRECTION ( 'NONE',  ( 0.000000000000000000, 0.000000000000000000, 1.000000000000000000 ) ) ;
#242 = ORIENTED_EDGE ( 'NONE', *, *, #281, .F. ) ;
#243 = PERSON_AND_ORGANIZATION_ROLE ( 'design_supplier' ) ;
#244 = VERTEX_POINT ( 'NONE', #301 ) ;
#245 = CARTESIAN_POINT ( 'NONE',  ( 3.000000000000000000, 0.000000000000000000, 0.000000000000000000 ) ) ;
#246 = VERTEX_POINT ( 'NONE', #114 ) ;
#247 = DIRECTION ( 'NONE',  ( 0.000000000000000000, 0.000000000000000000, -1.000000000000000000 ) ) ;
#248 = CARTESIAN_POINT ( 'NONE',  ( -2.999999999999999556, 7.776507174585692163E-16, -6.349999999999999645 ) ) ;
#249 = CARTESIAN_POINT ( 'NONE',  ( -2.999999999999999556, 0.000000000000000000, 0.000000000000000000 ) ) ;
#250 = DIRECTION ( 'NONE',  ( 0.000000000000000000, 0.000000000000000000, 1.000000000000000000 ) ) ;
#251 = DIRECTION ( 'NONE',  ( -1.000000000000000000, -0.000000000000000000, -0.000000000000000000 ) ) ;
#252 = CARTESIAN_POINT ( 'NONE',  ( -3.000000000000000000, 0.000000000000000000, 0.000000000000000000 ) ) ;
#253 = CIRCLE ( 'NONE', #42, 6.349999999999999645 ) ;
#254 = DIRECTION ( 'NONE',  ( 1.000000000000000000, 0.000000000000000000, 0.000000000000000000 ) ) ;
#255 =( NAMED_UNIT ( * ) SI_UNIT ( $, .STERADIAN. ) SOLID_ANGLE_UNIT ( ) );
#256 = CC_DESIGN_PERSON_AND_ORGANIZATION_ASSIGNMENT ( #304, #79, ( #206 ) ) ;
#257 = SECURITY_CLASSIFICATION ( '', '', #264 ) ;
#258 = EDGE_CURVE ( 'NONE', #317, #322, #167, .T. ) ;
#259 = PERSON_AND_ORGANIZATION_ROLE ( 'creator' ) ;
#260 = COORDINATED_UNIVERSAL_TIME_OFFSET ( 8, 0, .AHEAD. ) ;
#261 = CALENDAR_DATE ( 2020, 23, 12 ) ;
#262 = CARTESIAN_POINT ( 'NONE',  ( -1.614212418857619014, 7.776507174585692163E-16, -6.349999999999999645 ) ) ;
#263 = ORIENTED_EDGE ( 'NONE', *, *, #81, .T. ) ;
#264 = SECURITY_CLASSIFICATION_LEVEL ( 'unclassified' ) ;
#265 = ORIENTED_EDGE ( 'NONE', *, *, #108, .T. ) ;
#266 = ORIENTED_EDGE ( 'NONE', *, *, #334, .T. ) ;
#267 = AXIS2_PLACEMENT_3D ( 'NONE', #195, #122, #102 ) ;
#268 = VECTOR ( 'NONE', #147, 1000.000000000000000 ) ;
#269 = ORGANIZATION ( 'UNSPECIFIED', 'UNSPECIFIED', '' ) ;
#270 = VERTEX_POINT ( 'NONE', #298 ) ;
#271 = ORIENTED_EDGE ( 'NONE', *, *, #174, .T. ) ;
#272 = CC_DESIGN_PERSON_AND_ORGANIZATION_ASSIGNMENT ( #234, #91, ( #77 ) ) ;
#273 = CARTESIAN_POINT ( 'NONE',  ( -1.614212418857619014, 0.000000000000000000, 0.000000000000000000 ) ) ;
#274 = APPLICATION_CONTEXT ( 'configuration controlled 3d designs of mechanical parts and assemblies' ) ;
#275 = DIRECTION ( 'NONE',  ( -1.000000000000000000, -0.000000000000000000, -0.000000000000000000 ) ) ;
#276 = CARTESIAN_POINT ( 'NONE',  ( -1.614212418857619014, 0.000000000000000000, 12.69999999999999929 ) ) ;
#277 = DIRECTION ( 'NONE',  ( 0.000000000000000000, 0.000000000000000000, -1.000000000000000000 ) ) ;
#278 = ADVANCED_BREP_SHAPE_REPRESENTATION ( 'Q-QZWP-R4-12.7-1550-M', ( #229, #300 ), #134 ) ;
#279 = FACE_OUTER_BOUND ( 'NONE', #156, .T. ) ;
#280 = CLOSED_SHELL ( 'NONE', ( #164, #39, #100, #129, #154, #227, #51, #124, #203, #131 ) ) ;
#281 = EDGE_CURVE ( 'NONE', #92, #53, #208, .T. ) ;
#282 = DIRECTION ( 'NONE',  ( 1.000000000000000000, 0.000000000000000000, 0.000000000000000000 ) ) ;
#283 = VERTEX_POINT ( 'NONE', #333 ) ;
#284 = CALENDAR_DATE ( 2020, 23, 12 ) ;
#285 = AXIS2_PLACEMENT_3D ( 'NONE', #14, #9, #277 ) ;
#286 =( NAMED_UNIT ( * ) PLANE_ANGLE_UNIT ( ) SI_UNIT ( $, .RADIAN. ) );
#287 = CARTESIAN_POINT ( 'NONE',  ( 3.000000000000000000, 0.000000000000000000, 12.69999999999999929 ) ) ;
#288 = FACE_OUTER_BOUND ( 'NONE', #332, .T. ) ;
#289 = COORDINATED_UNIVERSAL_TIME_OFFSET ( 8, 0, .AHEAD. ) ;
#290 = DIRECTION ( 'NONE',  ( 1.000000000000000000, 0.000000000000000000, 0.000000000000000000 ) ) ;
#291 = CC_DESIGN_APPROVAL ( #48, ( #212 ) ) ;
#292 = ORIENTED_EDGE ( 'NONE', *, *, #258, .T. ) ;
#293 = CARTESIAN_POINT ( 'NONE',  ( 3.000000000000000888, 0.000000000000000000, 0.000000000000000000 ) ) ;
#294 = ORIENTED_EDGE ( 'NONE', *, *, #45, .T. ) ;
#295 = FACE_OUTER_BOUND ( 'NONE', #155, .T. ) ;
#296 = AXIS2_PLACEMENT_3D ( 'NONE', #43, #153, #54 ) ;
#297 = FACE_OUTER_BOUND ( 'NONE', #73, .T. ) ;
#298 = CARTESIAN_POINT ( 'NONE',  ( 3.000000000000000000, 1.555301434917138433E-15, -12.69999999999999929 ) ) ;
#299 = EDGE_CURVE ( 'NONE', #13, #270, #17, .T. ) ;
#300 = AXIS2_PLACEMENT_3D ( 'NONE', #115, #311, #282 ) ;
#301 = CARTESIAN_POINT ( 'NONE',  ( 3.000000000000000888, 0.000000000000000000, 6.349999999999999645 ) ) ;
#302 = DATE_AND_TIME ( #261, #87 ) ;
#303 = FACE_OUTER_BOUND ( 'NONE', #323, .T. ) ;
#304 = PERSON_AND_ORGANIZATION ( #144, #269 ) ;
#305 = AXIS2_PLACEMENT_3D ( 'NONE', #252, #69, #41 ) ;
#306 = DESIGN_CONTEXT ( 'detailed design', #274, 'design' ) ;
#307 = APPROVAL_STATUS ( 'not_yet_approved' ) ;
#308 = PLANE ( 'NONE',  #141 ) ;
#309 = CYLINDRICAL_SURFACE ( 'NONE', #20, 6.349999999999999645 ) ;
#310 = EDGE_CURVE ( 'NONE', #244, #143, #181, .T. ) ;
#311 = DIRECTION ( 'NONE',  ( 0.000000000000000000, 0.000000000000000000, 1.000000000000000000 ) ) ;
#312 = LINE ( 'NONE', #88, #320 ) ;
#313 = CC_DESIGN_APPROVAL ( #328, ( #206 ) ) ;
#314 = PERSON_AND_ORGANIZATION ( #144, #269 ) ;
#315 = ORIENTED_EDGE ( 'NONE', *, *, #149, .T. ) ;
#316 = DIRECTION ( 'NONE',  ( 0.000000000000000000, 0.000000000000000000, 1.000000000000000000 ) ) ;
#317 = VERTEX_POINT ( 'NONE', #1 ) ;
#318 = ORIENTED_EDGE ( 'NONE', *, *, #81, .F. ) ;
#319 = ORIENTED_EDGE ( 'NONE', *, *, #310, .T. ) ;
#320 = VECTOR ( 'NONE', #187, 1000.000000000000000 ) ;
#321 = APPROVAL_PERSON_ORGANIZATION ( #335, #5, #23 ) ;
#322 = VERTEX_POINT ( 'NONE', #83 ) ;
#323 = EDGE_LOOP ( 'NONE', ( #242, #294, #263, #224 ) ) ;
#324 = FACE_OUTER_BOUND ( 'NONE', #34, .T. ) ;
#325 = DIRECTION ( 'NONE',  ( -0.000000000000000000, 0.000000000000000000, 1.000000000000000000 ) ) ;
#326 = DIRECTION ( 'NONE',  ( -1.000000000000000000, -0.000000000000000000, -0.000000000000000000 ) ) ;
#327 = AXIS2_PLACEMENT_3D ( 'NONE', #232, #161, #241 ) ;
#328 = APPROVAL ( #178, 'UNSPECIFIED' ) ;
#329 = DIRECTION ( 'NONE',  ( -1.000000000000000000, 0.000000000000000000, -0.000000000000000000 ) ) ;
#330 = CARTESIAN_POINT ( 'NONE',  ( -1.500000000000000444, 0.000000000000000000, 0.000000000000000000 ) ) ;
#331 = DIRECTION ( 'NONE',  ( 0.000000000000000000, 0.000000000000000000, 1.000000000000000000 ) ) ;
#332 = EDGE_LOOP ( 'NONE', ( #315, #26, #59, #318 ) ) ;
#333 = CARTESIAN_POINT ( 'NONE',  ( -1.500000000000000444, 0.000000000000000000, 6.349999999999999645 ) ) ;
#334 = EDGE_CURVE ( 'NONE', #270, #13, #223, .T. ) ;
#335 = PERSON_AND_ORGANIZATION ( #144, #269 ) ;
ENDSEC;
END-ISO-10303-21;
